ISO-10303-21;
HEADER;
FILE_DESCRIPTION (( 'STEP AP203' ),
    '1' );
FILE_NAME ('BK7-BSC-5-400-700.STEP',
    '2020-12-22T03:16:01',
    ( '' ),
    ( '' ),
    'SwSTEP 2.0',
    'SolidWorks 2020',
    '' );
FILE_SCHEMA (( 'CONFIG_CONTROL_DESIGN' ));
ENDSEC;

DATA;
#1 = CARTESIAN_POINT ( 'NONE',  ( 2.500000000000002220, 2.499999999999999556, -2.500000000000000000 ) ) ;
#2 = AXIS2_PLACEMENT_3D ( 'NONE', #153, #125, #173 ) ;
#3 = PLANE ( 'NONE',  #309 ) ;
#4 = EDGE_CURVE ( 'NONE', #13, #163, #286, .T. ) ;
#5 = CARTESIAN_POINT ( 'NONE',  ( -2.500000000000000888, -2.499999999999998224, 2.500000000000000000 ) ) ;
#6 = LINE ( 'NONE', #164, #196 ) ;
#7 = VECTOR ( 'NONE', #233, 1000.000000000000000 ) ;
#8 = ORIENTED_EDGE ( 'NONE', *, *, #269, .F. ) ;
#9 = DIRECTION ( 'NONE',  ( -0.000000000000000000, -0.000000000000000000, -1.000000000000000000 ) ) ;
#10 = APPROVAL ( #51, 'UNSPECIFIED' ) ;
#11 = LOCAL_TIME ( 11, 16, 1.000000000000000000, #216 ) ;
#12 = CARTESIAN_POINT ( 'NONE',  ( -2.499999999999999556, -2.500000000000000444, 2.500000000000000000 ) ) ;
#13 = VERTEX_POINT ( 'NONE', #238 ) ;
#14 = PLANE ( 'NONE',  #187 ) ;
#15 = ORIENTED_EDGE ( 'NONE', *, *, #4, .F. ) ;
#16 = EDGE_CURVE ( 'NONE', #18, #167, #120, .T. ) ;
#17 = APPROVAL_ROLE ( '' ) ;
#18 = VERTEX_POINT ( 'NONE', #132 ) ;
#19 = PERSON_AND_ORGANIZATION ( #259, #180 ) ;
#20 = ADVANCED_FACE ( 'NONE', ( #79 ), #226, .F. ) ;
#21 = EDGE_LOOP ( 'NONE', ( #141, #8, #62, #46 ) ) ;
#22 = CALENDAR_DATE ( 2020, 22, 12 ) ;
#23 = VECTOR ( 'NONE', #191, 1000.000000000000000 ) ;
#24 = ADVANCED_FACE ( 'NONE', ( #295 ), #3, .F. ) ;
#25 = CARTESIAN_POINT ( 'NONE',  ( 0.000000000000000000, 0.000000000000000000, 2.500000000000000000 ) ) ;
#26 = COORDINATED_UNIVERSAL_TIME_OFFSET ( 8, 0, .AHEAD. ) ;
#27 = DIRECTION ( 'NONE',  ( 1.000000000000000000, 0.000000000000000000, 0.000000000000000000 ) ) ;
#28 = PLANE ( 'NONE',  #237 ) ;
#29 = VECTOR ( 'NONE', #101, 1000.000000000000000 ) ;
#30 = PLANE ( 'NONE',  #59 ) ;
#31 = LINE ( 'NONE', #113, #7 ) ;
#32 = DIRECTION ( 'NONE',  ( 1.000000000000000000, 0.000000000000000000, 0.000000000000000000 ) ) ;
#33 = DIRECTION ( 'NONE',  ( 3.469446951953614189E-16, 1.000000000000000000, -0.000000000000000000 ) ) ;
#34 = VECTOR ( 'NONE', #9, 1000.000000000000000 ) ;
#35 = ORIENTED_EDGE ( 'NONE', *, *, #151, .F. ) ;
#36 = DIRECTION ( 'NONE',  ( -1.000000000000000000, 9.714451465470109868E-17, 0.000000000000000000 ) ) ;
#37 = ORIENTED_EDGE ( 'NONE', *, *, #234, .T. ) ;
#38 = EDGE_CURVE ( 'NONE', #67, #185, #299, .T. ) ;
#39 = ORIENTED_EDGE ( 'NONE', *, *, #16, .F. ) ;
#40 = APPROVAL_STATUS ( 'not_yet_approved' ) ;
#41 = EDGE_CURVE ( 'NONE', #122, #67, #318, .T. ) ;
#42 = ORIENTED_EDGE ( 'NONE', *, *, #171, .T. ) ;
#43 = VECTOR ( 'NONE', #250, 1000.000000000000000 ) ;
#44 = PERSON_AND_ORGANIZATION ( #259, #180 ) ;
#45 = CC_DESIGN_APPROVAL ( #192, ( #208 ) ) ;
#46 = ORIENTED_EDGE ( 'NONE', *, *, #114, .T. ) ;
#47 = COORDINATED_UNIVERSAL_TIME_OFFSET ( 8, 0, .AHEAD. ) ;
#48 = ADVANCED_FACE ( 'NONE', ( #274 ), #30, .F. ) ;
#49 = DATE_AND_TIME ( #174, #90 ) ;
#50 = DIRECTION ( 'NONE',  ( 0.000000000000000000, -0.000000000000000000, 1.000000000000000000 ) ) ;
#51 = APPROVAL_STATUS ( 'not_yet_approved' ) ;
#52 = DIRECTION ( 'NONE',  ( 2.220446049250312588E-16, 1.000000000000000000, 0.000000000000000000 ) ) ;
#53 = LINE ( 'NONE', #1, #255 ) ;
#54 = PLANE ( 'NONE',  #246 ) ;
#55 = FACE_OUTER_BOUND ( 'NONE', #258, .T. ) ;
#56 = DIRECTION ( 'NONE',  ( 0.000000000000000000, 1.000000000000000000, 0.000000000000000000 ) ) ;
#57 = CC_DESIGN_PERSON_AND_ORGANIZATION_ASSIGNMENT ( #44, #169, ( #127 ) ) ;
#58 = VERTEX_POINT ( 'NONE', #177 ) ;
#59 = AXIS2_PLACEMENT_3D ( 'NONE', #245, #50, #296 ) ;
#60 = ADVANCED_FACE ( 'NONE', ( #200 ), #270, .F. ) ;
#61 = LINE ( 'NONE', #162, #34 ) ;
#62 = ORIENTED_EDGE ( 'NONE', *, *, #112, .T. ) ;
#63 = PLANE ( 'NONE',  #251 ) ;
#64 = APPROVAL_PERSON_ORGANIZATION ( #312, #192, #17 ) ;
#65 = ORIENTED_EDGE ( 'NONE', *, *, #4, .T. ) ;
#66 = FACE_OUTER_BOUND ( 'NONE', #280, .T. ) ;
#67 = VERTEX_POINT ( 'NONE', #276 ) ;
#68 = PERSON_AND_ORGANIZATION ( #259, #180 ) ;
#69 = PRODUCT ( 'BK7-BSC-5-400-700', 'BK7-BSC-5-400-700', '', ( #198 ) ) ;
#70 = APPROVAL_DATE_TIME ( #239, #10 ) ;
#71 = ORIENTED_EDGE ( 'NONE', *, *, #114, .F. ) ;
#72 = EDGE_CURVE ( 'NONE', #307, #188, #199, .T. ) ;
#73 = DIRECTION ( 'NONE',  ( 1.000000000000000000, -4.440892098500625176E-16, 0.000000000000000000 ) ) ;
#74 = PERSON_AND_ORGANIZATION ( #259, #180 ) ;
#75 = DIRECTION ( 'NONE',  ( -0.000000000000000000, 0.000000000000000000, 1.000000000000000000 ) ) ;
#76 = DATE_AND_TIME ( #121, #207 ) ;
#77 = CARTESIAN_POINT ( 'NONE',  ( -2.499999999999999556, -2.500000000000000444, -2.500000000000000000 ) ) ;
#78 = DIRECTION ( 'NONE',  ( -0.7071067811865476838, -0.7071067811865474617, 0.000000000000000000 ) ) ;
#79 = FACE_OUTER_BOUND ( 'NONE', #160, .T. ) ;
#80 = VECTOR ( 'NONE', #78, 1000.000000000000000 ) ;
#81 = CARTESIAN_POINT ( 'NONE',  ( 2.500000000000000000, 2.500000000000000888, 2.500000000000000000 ) ) ;
#82 = CARTESIAN_POINT ( 'NONE',  ( 2.500000000000002220, 2.499999999999999556, 2.500000000000000000 ) ) ;
#83 = APPLICATION_CONTEXT ( 'configuration controlled 3d designs of mechanical parts and assemblies' ) ;
#84 = VECTOR ( 'NONE', #300, 1000.000000000000000 ) ;
#85 = ORIENTED_EDGE ( 'NONE', *, *, #241, .T. ) ;
#86 = CARTESIAN_POINT ( 'NONE',  ( 2.500000000000002220, 2.499999999999999556, -2.500000000000000000 ) ) ;
#87 = ORIENTED_EDGE ( 'NONE', *, *, #124, .F. ) ;
#88 = ADVANCED_BREP_SHAPE_REPRESENTATION ( 'BK7-BSC-5-400-700', ( #91, #93, #119 ), #183 ) ;
#89 = CARTESIAN_POINT ( 'NONE',  ( -2.499999999999999556, -2.500000000000000444, 2.500000000000000000 ) ) ;
#90 = LOCAL_TIME ( 11, 16, 1.000000000000000000, #319 ) ;
#91 = MANIFOLD_SOLID_BREP ( 'Í¹Ì¨-À', #152 ) ;
#92 = CARTESIAN_POINT ( 'NONE',  ( 2.500000000000000000, 2.500000000000000888, 2.500000000000000000 ) ) ;
#93 = MANIFOLD_SOLID_BREP ( '¾µÏ', #159 ) ;
#94 = DATE_TIME_ROLE ( 'creation_date' ) ;
#95 = ADVANCED_FACE ( 'NONE', ( #55 ), #223, .T. ) ;
#96 = ORIENTED_EDGE ( 'NONE', *, *, #16, .T. ) ;
#97 = VECTOR ( 'NONE', #27, 1000.000000000000000 ) ;
#98 = APPLICATION_PROTOCOL_DEFINITION ( 'international standard', 'config_control_design', 1994, #83 ) ;
#99 = LOCAL_TIME ( 11, 16, 1.000000000000000000, #293 ) ;
#100 = CARTESIAN_POINT ( 'NONE',  ( -2.500000000000000888, -2.499999999999998224, 2.500000000000000000 ) ) ;
#101 = DIRECTION ( 'NONE',  ( -0.7071067811865476838, -0.7071067811865474617, 0.000000000000000000 ) ) ;
#102 = DIRECTION ( 'NONE',  ( 0.000000000000000000, -0.000000000000000000, 1.000000000000000000 ) ) ;
#103 = DIRECTION ( 'NONE',  ( 1.000000000000000000, 0.000000000000000000, 0.000000000000000000 ) ) ;
#104 = APPROVAL_PERSON_ORGANIZATION ( #172, #10, #261 ) ;
#105 = DIRECTION ( 'NONE',  ( 0.000000000000000000, 0.000000000000000000, 1.000000000000000000 ) ) ;
#106 = ADVANCED_FACE ( 'NONE', ( #252 ), #28, .T. ) ;
#107 = PLANE ( 'NONE',  #109 ) ;
#108 = CARTESIAN_POINT ( 'NONE',  ( 2.500000000000000444, -2.500000000000000444, 2.500000000000000000 ) ) ;
#109 = AXIS2_PLACEMENT_3D ( 'NONE', #89, #56, #186 ) ;
#110 = CARTESIAN_POINT ( 'NONE',  ( 2.500000000000002220, 2.499999999999999556, 2.500000000000000000 ) ) ;
#111 = VECTOR ( 'NONE', #254, 1000.000000000000000 ) ;
#112 = EDGE_CURVE ( 'NONE', #282, #13, #148, .T. ) ;
#113 = CARTESIAN_POINT ( 'NONE',  ( 2.500000000000000000, 2.500000000000000888, 2.500000000000000000 ) ) ;
#114 = EDGE_CURVE ( 'NONE', #13, #122, #201, .T. ) ;
#115 = ORIENTED_EDGE ( 'NONE', *, *, #241, .F. ) ;
#116 = DIRECTION ( 'NONE',  ( -1.000000000000000000, 3.469446951953614189E-16, 0.000000000000000000 ) ) ;
#117 = ORIENTED_EDGE ( 'NONE', *, *, #72, .F. ) ;
#118 = APPROVAL_ROLE ( '' ) ;
#119 = AXIS2_PLACEMENT_3D ( 'NONE', #129, #144, #166 ) ;
#120 = LINE ( 'NONE', #313, #168 ) ;
#121 = CALENDAR_DATE ( 2020, 22, 12 ) ;
#122 = VERTEX_POINT ( 'NONE', #197 ) ;
#123 = PERSON_AND_ORGANIZATION ( #259, #180 ) ;
#124 = EDGE_CURVE ( 'NONE', #163, #282, #248, .T. ) ;
#125 = DIRECTION ( 'NONE',  ( 0.7071067811865474617, -0.7071067811865476838, 0.000000000000000000 ) ) ;
#126 = APPROVAL_DATE_TIME ( #195, #321 ) ;
#127 = PRODUCT_DEFINITION_FORMATION_WITH_SPECIFIED_SOURCE ( 'ANY', '', #69, .NOT_KNOWN. ) ;
#128 = CARTESIAN_POINT ( 'NONE',  ( 0.000000000000000000, 0.000000000000000000, -2.500000000000000000 ) ) ;
#129 = CARTESIAN_POINT ( 'NONE',  ( 0.000000000000000000, 0.000000000000000000, 0.000000000000000000 ) ) ;
#130 = CARTESIAN_POINT ( 'NONE',  ( 2.500000000000000000, 2.500000000000000888, -2.500000000000000000 ) ) ;
#131 = CARTESIAN_POINT ( 'NONE',  ( 2.500000000000000000, 2.500000000000000888, -2.500000000000000000 ) ) ;
#132 = CARTESIAN_POINT ( 'NONE',  ( 2.500000000000000444, -2.500000000000000444, 2.500000000000000000 ) ) ;
#133 = LOCAL_TIME ( 11, 16, 1.000000000000000000, #47 ) ;
#134 = DIRECTION ( 'NONE',  ( -3.469446951953614189E-16, -1.000000000000000000, 0.000000000000000000 ) ) ;
#135 = LINE ( 'NONE', #108, #111 ) ;
#136 = DESIGN_CONTEXT ( 'detailed design', #231, 'design' ) ;
#137 = ORIENTED_EDGE ( 'NONE', *, *, #302, .F. ) ;
#138 = ORIENTED_EDGE ( 'NONE', *, *, #41, .T. ) ;
#139 = EDGE_LOOP ( 'NONE', ( #217, #71, #65, #42 ) ) ;
#140 = VECTOR ( 'NONE', #32, 1000.000000000000000 ) ;
#141 = ORIENTED_EDGE ( 'NONE', *, *, #315, .F. ) ;
#142 = CC_DESIGN_DATE_AND_TIME_ASSIGNMENT ( #242, #268, ( #271 ) ) ;
#143 = CALENDAR_DATE ( 2020, 22, 12 ) ;
#144 = DIRECTION ( 'NONE',  ( 0.000000000000000000, 0.000000000000000000, 1.000000000000000000 ) ) ;
#145 = CARTESIAN_POINT ( 'NONE',  ( 2.500000000000000000, 2.500000000000000888, 2.500000000000000000 ) ) ;
#146 = APPROVAL_DATE_TIME ( #76, #192 ) ;
#147 = PRODUCT_RELATED_PRODUCT_CATEGORY ( 'detail', '', ( #69 ) ) ;
#148 = LINE ( 'NONE', #100, #43 ) ;
#149 = DIRECTION ( 'NONE',  ( 3.469446951953614189E-16, 1.000000000000000000, -0.000000000000000000 ) ) ;
#150 = CARTESIAN_POINT ( 'NONE',  ( -2.500000000000000888, -2.499999999999998224, 2.500000000000000000 ) ) ;
#151 = EDGE_CURVE ( 'NONE', #213, #307, #53, .T. ) ;
#152 = CLOSED_SHELL ( 'NONE', ( #60, #275, #202, #106, #24 ) ) ;
#153 = CARTESIAN_POINT ( 'NONE',  ( 2.500000000000002220, 2.499999999999999556, 2.500000000000000000 ) ) ;
#154 = VECTOR ( 'NONE', #212, 1000.000000000000000 ) ;
#155 = CC_DESIGN_PERSON_AND_ORGANIZATION_ASSIGNMENT ( #68, #291, ( #208 ) ) ;
#156 = CARTESIAN_POINT ( 'NONE',  ( -2.499999999999999556, -2.500000000000000444, 2.500000000000000000 ) ) ;
#157 = ADVANCED_FACE ( 'NONE', ( #320 ), #54, .F. ) ;
#158 = LINE ( 'NONE', #12, #84 ) ;
#159 = CLOSED_SHELL ( 'NONE', ( #20, #157, #283, #95, #48 ) ) ;
#160 = EDGE_LOOP ( 'NONE', ( #240, #256, #310, #193 ) ) ;
#161 = VECTOR ( 'NONE', #287, 1000.000000000000000 ) ;
#162 = CARTESIAN_POINT ( 'NONE',  ( 2.500000000000002220, 2.499999999999999556, 2.500000000000000000 ) ) ;
#163 = VERTEX_POINT ( 'NONE', #145 ) ;
#164 = CARTESIAN_POINT ( 'NONE',  ( -2.500000000000000888, -2.499999999999998224, -2.500000000000000000 ) ) ;
#165 = EDGE_LOOP ( 'NONE', ( #35, #115, #117 ) ) ;
#166 = DIRECTION ( 'NONE',  ( 1.000000000000000000, 0.000000000000000000, 0.000000000000000000 ) ) ;
#167 = VERTEX_POINT ( 'NONE', #230 ) ;
#168 = VECTOR ( 'NONE', #149, 1000.000000000000000 ) ;
#169 = PERSON_AND_ORGANIZATION_ROLE ( 'design_supplier' ) ;
#170 = ORIENTED_EDGE ( 'NONE', *, *, #151, .T. ) ;
#171 = EDGE_CURVE ( 'NONE', #163, #67, #31, .T. ) ;
#172 = PERSON_AND_ORGANIZATION ( #259, #180 ) ;
#173 = DIRECTION ( 'NONE',  ( 0.7071067811865476838, 0.7071067811865474617, 0.000000000000000000 ) ) ;
#174 = CALENDAR_DATE ( 2020, 22, 12 ) ;
#175 = CARTESIAN_POINT ( 'NONE',  ( 2.500000000000000000, 2.500000000000000888, 2.500000000000000000 ) ) ;
#176 = DIRECTION ( 'NONE',  ( 1.000000000000000000, 0.000000000000000000, 0.000000000000000000 ) ) ;
#177 = CARTESIAN_POINT ( 'NONE',  ( -2.499999999999999556, -2.500000000000000444, 2.500000000000000000 ) ) ;
#178 = DIRECTION ( 'NONE',  ( 1.000000000000000000, -9.714451465470109868E-17, 0.000000000000000000 ) ) ;
#179 = DIRECTION ( 'NONE',  ( -9.714451465470109868E-17, -1.000000000000000000, 0.000000000000000000 ) ) ;
#180 = ORGANIZATION ( 'UNSPECIFIED', 'UNSPECIFIED', '' ) ;
#181 = ORIENTED_EDGE ( 'NONE', *, *, #302, .T. ) ;
#182 = PRODUCT_DEFINITION_SHAPE ( 'NONE', 'NONE',  #208 ) ;
#183 =( GEOMETRIC_REPRESENTATION_CONTEXT ( 3 ) GLOBAL_UNCERTAINTY_ASSIGNED_CONTEXT ( ( #190 ) ) GLOBAL_UNIT_ASSIGNED_CONTEXT ( ( #304, #281, #184 ) ) REPRESENTATION_CONTEXT ( 'NONE', 'WORKASPACE' ) );
#184 =( NAMED_UNIT ( * ) SI_UNIT ( $, .STERADIAN. ) SOLID_ANGLE_UNIT ( ) );
#185 = VERTEX_POINT ( 'NONE', #285 ) ;
#186 = DIRECTION ( 'NONE',  ( 0.000000000000000000, -0.000000000000000000, 1.000000000000000000 ) ) ;
#187 = AXIS2_PLACEMENT_3D ( 'NONE', #82, #116, #134 ) ;
#188 = VERTEX_POINT ( 'NONE', #210 ) ;
#189 = FACE_OUTER_BOUND ( 'NONE', #139, .T. ) ;
#190 = UNCERTAINTY_MEASURE_WITH_UNIT (LENGTH_MEASURE( 1.000000000000000082E-05 ), #304, 'distance_accuracy_value', 'NONE');
#191 = DIRECTION ( 'NONE',  ( 1.000000000000000000, -9.714451465470109868E-17, 0.000000000000000000 ) ) ;
#192 = APPROVAL ( #40, 'UNSPECIFIED' ) ;
#193 = ORIENTED_EDGE ( 'NONE', *, *, #269, .T. ) ;
#194 = EDGE_LOOP ( 'NONE', ( #170, #211, #215, #235 ) ) ;
#195 = DATE_AND_TIME ( #317, #99 ) ;
#196 = VECTOR ( 'NONE', #301, 1000.000000000000000 ) ;
#197 = CARTESIAN_POINT ( 'NONE',  ( -2.500000000000000000, 2.500000000000001776, -2.500000000000000000 ) ) ;
#198 = MECHANICAL_CONTEXT ( 'NONE', #83, 'mechanical' ) ;
#199 = LINE ( 'NONE', #77, #97 ) ;
#200 = FACE_OUTER_BOUND ( 'NONE', #194, .T. ) ;
#201 = LINE ( 'NONE', #273, #225 ) ;
#202 = ADVANCED_FACE ( 'NONE', ( #308 ), #14, .F. ) ;
#203 = DIRECTION ( 'NONE',  ( -0.7071067811865473507, 0.7071067811865476838, 0.000000000000000000 ) ) ;
#204 = CARTESIAN_POINT ( 'NONE',  ( 2.500000000000002220, 2.499999999999999556, -2.500000000000000000 ) ) ;
#205 = AXIS2_PLACEMENT_3D ( 'NONE', #175, #203, #219 ) ;
#206 = LINE ( 'NONE', #156, #140 ) ;
#207 = LOCAL_TIME ( 11, 16, 1.000000000000000000, #26 ) ;
#208 = PRODUCT_DEFINITION ( 'UNKNOWN', '', #127, #136 ) ;
#209 = ORIENTED_EDGE ( 'NONE', *, *, #112, .F. ) ;
#210 = CARTESIAN_POINT ( 'NONE',  ( 2.500000000000000444, -2.500000000000000444, -2.500000000000000000 ) ) ;
#211 = ORIENTED_EDGE ( 'NONE', *, *, #234, .F. ) ;
#212 = DIRECTION ( 'NONE',  ( -0.000000000000000000, 0.000000000000000000, -1.000000000000000000 ) ) ;
#213 = VERTEX_POINT ( 'NONE', #86 ) ;
#214 = SECURITY_CLASSIFICATION_LEVEL ( 'unclassified' ) ;
#215 = ORIENTED_EDGE ( 'NONE', *, *, #284, .F. ) ;
#216 = COORDINATED_UNIVERSAL_TIME_OFFSET ( 8, 0, .AHEAD. ) ;
#217 = ORIENTED_EDGE ( 'NONE', *, *, #41, .F. ) ;
#218 = APPROVAL_STATUS ( 'not_yet_approved' ) ;
#219 = DIRECTION ( 'NONE',  ( 0.7071067811865476838, 0.7071067811865473507, 0.000000000000000000 ) ) ;
#220 = VECTOR ( 'NONE', #178, 1000.000000000000000 ) ;
#221 = SHAPE_DEFINITION_REPRESENTATION ( #182, #88 ) ;
#222 = DIRECTION ( 'NONE',  ( -0.7071067811865476838, -0.7071067811865474617, 0.000000000000000000 ) ) ;
#223 = PLANE ( 'NONE',  #277 ) ;
#224 = DIRECTION ( 'NONE',  ( -0.000000000000000000, 0.000000000000000000, 1.000000000000000000 ) ) ;
#225 = VECTOR ( 'NONE', #297, 1000.000000000000000 ) ;
#226 = PLANE ( 'NONE',  #205 ) ;
#227 = LINE ( 'NONE', #204, #257 ) ;
#228 = CC_DESIGN_PERSON_AND_ORGANIZATION_ASSIGNMENT ( #19, #289, ( #127 ) ) ;
#229 = CARTESIAN_POINT ( 'NONE',  ( -2.499999999999999556, -2.500000000000000444, -2.500000000000000000 ) ) ;
#230 = CARTESIAN_POINT ( 'NONE',  ( 2.500000000000002220, 2.499999999999999556, 2.500000000000000000 ) ) ;
#231 = APPLICATION_CONTEXT ( 'configuration controlled 3d designs of mechanical parts and assemblies' ) ;
#232 = ORIENTED_EDGE ( 'NONE', *, *, #298, .F. ) ;
#233 = DIRECTION ( 'NONE',  ( -0.000000000000000000, 0.000000000000000000, -1.000000000000000000 ) ) ;
#234 = EDGE_CURVE ( 'NONE', #58, #307, #158, .T. ) ;
#235 = ORIENTED_EDGE ( 'NONE', *, *, #298, .T. ) ;
#236 = PERSON_AND_ORGANIZATION ( #259, #180 ) ;
#237 = AXIS2_PLACEMENT_3D ( 'NONE', #267, #224, #176 ) ;
#238 = CARTESIAN_POINT ( 'NONE',  ( -2.500000000000000000, 2.500000000000001776, 2.500000000000000000 ) ) ;
#239 = DATE_AND_TIME ( #22, #11 ) ;
#240 = ORIENTED_EDGE ( 'NONE', *, *, #38, .F. ) ;
#241 = EDGE_CURVE ( 'NONE', #188, #213, #227, .T. ) ;
#242 = DATE_AND_TIME ( #143, #133 ) ;
#243 = ORIENTED_EDGE ( 'NONE', *, *, #38, .T. ) ;
#244 = PERSON_AND_ORGANIZATION_ROLE ( 'design_owner' ) ;
#245 = CARTESIAN_POINT ( 'NONE',  ( 0.000000000000000000, 0.000000000000000000, -2.500000000000000000 ) ) ;
#246 = AXIS2_PLACEMENT_3D ( 'NONE', #150, #73, #105 ) ;
#247 = APPROVAL_PERSON_ORGANIZATION ( #123, #321, #118 ) ;
#248 = LINE ( 'NONE', #294, #80 ) ;
#249 = CC_DESIGN_PERSON_AND_ORGANIZATION_ASSIGNMENT ( #236, #264, ( #271 ) ) ;
#250 = DIRECTION ( 'NONE',  ( 2.220446049250312588E-16, 1.000000000000000000, 0.000000000000000000 ) ) ;
#251 = AXIS2_PLACEMENT_3D ( 'NONE', #81, #179, #36 ) ;
#252 = FACE_OUTER_BOUND ( 'NONE', #290, .T. ) ;
#253 = CARTESIAN_POINT ( 'NONE',  ( -2.500000000000000888, -2.499999999999998224, 2.500000000000000000 ) ) ;
#254 = DIRECTION ( 'NONE',  ( -0.000000000000000000, -0.000000000000000000, -1.000000000000000000 ) ) ;
#255 = VECTOR ( 'NONE', #222, 1000.000000000000000 ) ;
#256 = ORIENTED_EDGE ( 'NONE', *, *, #171, .F. ) ;
#257 = VECTOR ( 'NONE', #33, 1000.000000000000000 ) ;
#258 = EDGE_LOOP ( 'NONE', ( #87, #15, #209 ) ) ;
#259 = PERSON ( 'UNSPECIFIED', 'UNSPECIFIED', 'UNSPECIFIED', ('UNSPECIFIED'), ('UNSPECIFIED'), ('UNSPECIFIED') ) ;
#260 = ORIENTED_EDGE ( 'NONE', *, *, #303, .F. ) ;
#261 = APPROVAL_ROLE ( '' ) ;
#262 = EDGE_LOOP ( 'NONE', ( #85, #232, #39, #288 ) ) ;
#263 = CC_DESIGN_APPROVAL ( #10, ( #127 ) ) ;
#264 = PERSON_AND_ORGANIZATION_ROLE ( 'classification_officer' ) ;
#265 = EDGE_LOOP ( 'NONE', ( #243, #305, #138 ) ) ;
#266 = CC_DESIGN_PERSON_AND_ORGANIZATION_ASSIGNMENT ( #74, #244, ( #69 ) ) ;
#267 = CARTESIAN_POINT ( 'NONE',  ( 0.000000000000000000, 0.000000000000000000, 2.500000000000000000 ) ) ;
#268 = DATE_TIME_ROLE ( 'classification_date' ) ;
#269 = EDGE_CURVE ( 'NONE', #282, #185, #306, .T. ) ;
#270 = PLANE ( 'NONE',  #2 ) ;
#271 = SECURITY_CLASSIFICATION ( '', '', #214 ) ;
#272 = CC_DESIGN_DATE_AND_TIME_ASSIGNMENT ( #49, #94, ( #208 ) ) ;
#273 = CARTESIAN_POINT ( 'NONE',  ( -2.500000000000000000, 2.500000000000001776, 2.500000000000000000 ) ) ;
#274 = FACE_OUTER_BOUND ( 'NONE', #265, .T. ) ;
#275 = ADVANCED_FACE ( 'NONE', ( #66 ), #107, .F. ) ;
#276 = CARTESIAN_POINT ( 'NONE',  ( 2.500000000000000000, 2.500000000000000888, -2.500000000000000000 ) ) ;
#277 = AXIS2_PLACEMENT_3D ( 'NONE', #25, #102, #52 ) ;
#278 = CC_DESIGN_SECURITY_CLASSIFICATION ( #271, ( #127 ) ) ;
#279 = LINE ( 'NONE', #110, #161 ) ;
#280 = EDGE_LOOP ( 'NONE', ( #316, #260, #137, #37 ) ) ;
#281 =( NAMED_UNIT ( * ) PLANE_ANGLE_UNIT ( ) SI_UNIT ( $, .RADIAN. ) );
#282 = VERTEX_POINT ( 'NONE', #5 ) ;
#283 = ADVANCED_FACE ( 'NONE', ( #189 ), #63, .F. ) ;
#284 = EDGE_CURVE ( 'NONE', #167, #58, #279, .T. ) ;
#285 = CARTESIAN_POINT ( 'NONE',  ( -2.500000000000000888, -2.499999999999998224, -2.500000000000000000 ) ) ;
#286 = LINE ( 'NONE', #92, #23 ) ;
#287 = DIRECTION ( 'NONE',  ( -0.7071067811865476838, -0.7071067811865474617, 0.000000000000000000 ) ) ;
#288 = ORIENTED_EDGE ( 'NONE', *, *, #303, .T. ) ;
#289 = PERSON_AND_ORGANIZATION_ROLE ( 'creator' ) ;
#290 = EDGE_LOOP ( 'NONE', ( #292, #181, #96 ) ) ;
#291 = PERSON_AND_ORGANIZATION_ROLE ( 'creator' ) ;
#292 = ORIENTED_EDGE ( 'NONE', *, *, #284, .T. ) ;
#293 = COORDINATED_UNIVERSAL_TIME_OFFSET ( 8, 0, .AHEAD. ) ;
#294 = CARTESIAN_POINT ( 'NONE',  ( 2.500000000000000000, 2.500000000000000888, 2.500000000000000000 ) ) ;
#295 = FACE_OUTER_BOUND ( 'NONE', #165, .T. ) ;
#296 = DIRECTION ( 'NONE',  ( 2.220446049250312588E-16, 1.000000000000000000, 0.000000000000000000 ) ) ;
#297 = DIRECTION ( 'NONE',  ( -0.000000000000000000, 0.000000000000000000, -1.000000000000000000 ) ) ;
#298 = EDGE_CURVE ( 'NONE', #167, #213, #61, .T. ) ;
#299 = LINE ( 'NONE', #130, #29 ) ;
#300 = DIRECTION ( 'NONE',  ( -0.000000000000000000, -0.000000000000000000, -1.000000000000000000 ) ) ;
#301 = DIRECTION ( 'NONE',  ( 2.220446049250312588E-16, 1.000000000000000000, 0.000000000000000000 ) ) ;
#302 = EDGE_CURVE ( 'NONE', #58, #18, #206, .T. ) ;
#303 = EDGE_CURVE ( 'NONE', #18, #188, #135, .T. ) ;
#304 =( LENGTH_UNIT ( ) NAMED_UNIT ( * ) SI_UNIT ( .MILLI., .METRE. ) );
#305 = ORIENTED_EDGE ( 'NONE', *, *, #315, .T. ) ;
#306 = LINE ( 'NONE', #253, #154 ) ;
#307 = VERTEX_POINT ( 'NONE', #229 ) ;
#308 = FACE_OUTER_BOUND ( 'NONE', #262, .T. ) ;
#309 = AXIS2_PLACEMENT_3D ( 'NONE', #128, #75, #103 ) ;
#310 = ORIENTED_EDGE ( 'NONE', *, *, #124, .T. ) ;
#311 = CC_DESIGN_APPROVAL ( #321, ( #271 ) ) ;
#312 = PERSON_AND_ORGANIZATION ( #259, #180 ) ;
#313 = CARTESIAN_POINT ( 'NONE',  ( 2.500000000000002220, 2.499999999999999556, 2.500000000000000000 ) ) ;
#314 = APPLICATION_PROTOCOL_DEFINITION ( 'international standard', 'config_control_design', 1994, #231 ) ;
#315 = EDGE_CURVE ( 'NONE', #185, #122, #6, .T. ) ;
#316 = ORIENTED_EDGE ( 'NONE', *, *, #72, .T. ) ;
#317 = CALENDAR_DATE ( 2020, 22, 12 ) ;
#318 = LINE ( 'NONE', #131, #220 ) ;
#319 = COORDINATED_UNIVERSAL_TIME_OFFSET ( 8, 0, .AHEAD. ) ;
#320 = FACE_OUTER_BOUND ( 'NONE', #21, .T. ) ;
#321 = APPROVAL ( #218, 'UNSPECIFIED' ) ;
ENDSEC;
END-ISO-10303-21;
